ISO-10303-21;
HEADER;
FILE_DESCRIPTION(('STEP AP214'),'1');
FILE_NAME('C:/TPO v2/SharedFS/Outgoing/hpj80.stp','2015-08-13T11:35:21',('TraceParts'),('TraceParts S.A.'),'Spatial InterOp 3D',' ',' ');
FILE_SCHEMA(('automotive_design'));
ENDSEC;
DATA;
#1=PRODUCT_DEFINITION_CONTEXT('',#9,'design');
#2=APPLICATION_PROTOCOL_DEFINITION('INTERNATIONAL STANDARD','automotive_design',1994,#9);
#3=PRODUCT_CATEGORY_RELATIONSHIP('NONE','NONE',#10,#11);
#4=SHAPE_DEFINITION_REPRESENTATION(#12,#13);
#5= (GEOMETRIC_REPRESENTATION_CONTEXT(3)GLOBAL_UNCERTAINTY_ASSIGNED_CONTEXT((#16))GLOBAL_UNIT_ASSIGNED_CONTEXT((#18,#19,#20))REPRESENTATION_CONTEXT('NONE','WORKSPACE'));
#9=APPLICATION_CONTEXT(' ');
#10=PRODUCT_CATEGORY('part','NONE');
#11=PRODUCT_RELATED_PRODUCT_CATEGORY('detail',' ',(#22));
#12=PRODUCT_DEFINITION_SHAPE('NONE','NONE',#23);
#13=ADVANCED_BREP_SHAPE_REPRESENTATION('1',(#24,#25),#5);
#16=UNCERTAINTY_MEASURE_WITH_UNIT(LENGTH_MEASURE(1.0E-006),#18,'','');
#18= (CONVERSION_BASED_UNIT('MILLIMETRE',#28)LENGTH_UNIT()NAMED_UNIT(#31));
#19= (NAMED_UNIT(#33)PLANE_ANGLE_UNIT()SI_UNIT($,.RADIAN.));
#20= (NAMED_UNIT(#33)SOLID_ANGLE_UNIT()SI_UNIT($,.STERADIAN.));
#22=PRODUCT('1','1','PART-1-DESC',(#39));
#23=PRODUCT_DEFINITION('NONE','NONE',#40,#1);
#24=MANIFOLD_SOLID_BREP('1',#41);
#25=AXIS2_PLACEMENT_3D('',#42,#43,#44);
#28=LENGTH_MEASURE_WITH_UNIT(LENGTH_MEASURE(1.0),#45);
#31=DIMENSIONAL_EXPONENTS(1.0,0.0,0.0,0.0,0.0,0.0,0.0);
#33=DIMENSIONAL_EXPONENTS(0.0,0.0,0.0,0.0,0.0,0.0,0.0);
#39=PRODUCT_CONTEXT('',#9,'mechanical');
#40=PRODUCT_DEFINITION_FORMATION_WITH_SPECIFIED_SOURCE(' ','NONE',#22,.NOT_KNOWN.);
#41=CLOSED_SHELL('',(#46,#47,#48,#49,#50,#51,#52,#53,#54,#55,#56,#57,#58,#59,#60,#61,#62,#63,#64,#65,#66,#67,#68,#69,#70,#71,#72));
#42=CARTESIAN_POINT('',(0.0,0.0,0.0));
#43=DIRECTION('',(0.0,0.0,1.0));
#44=DIRECTION('',(1.0,0.0,0.0));
#45= (NAMED_UNIT(#31)LENGTH_UNIT()SI_UNIT(.MILLI.,.METRE.));
#46=ADVANCED_FACE('',(#74),#75,.T.);
#47=ADVANCED_FACE('',(#76),#77,.T.);
#48=ADVANCED_FACE('',(#78),#79,.F.);
#49=ADVANCED_FACE('',(#80),#81,.F.);
#50=ADVANCED_FACE('',(#82),#83,.T.);
#51=ADVANCED_FACE('',(#84),#85,.T.);
#52=ADVANCED_FACE('',(#86),#87,.T.);
#53=ADVANCED_FACE('',(#88),#89,.T.);
#54=ADVANCED_FACE('',(#90),#91,.F.);
#55=ADVANCED_FACE('',(#92),#93,.F.);
#56=ADVANCED_FACE('',(#94),#95,.F.);
#57=ADVANCED_FACE('',(#96),#97,.F.);
#58=ADVANCED_FACE('',(#98),#99,.F.);
#59=ADVANCED_FACE('',(#100),#101,.F.);
#60=ADVANCED_FACE('',(#102,#103),#104,.F.);
#61=ADVANCED_FACE('',(#105),#106,.T.);
#62=ADVANCED_FACE('',(#107,#108),#109,.T.);
#63=ADVANCED_FACE('',(#110),#111,.T.);
#64=ADVANCED_FACE('',(#112),#113,.T.);
#65=ADVANCED_FACE('',(#114),#115,.T.);
#66=ADVANCED_FACE('',(#116),#117,.T.);
#67=ADVANCED_FACE('',(#118),#119,.F.);
#68=ADVANCED_FACE('',(#120),#121,.F.);
#69=ADVANCED_FACE('',(#122,#123),#124,.T.);
#70=ADVANCED_FACE('',(#125),#126,.T.);
#71=ADVANCED_FACE('',(#127),#128,.T.);
#72=ADVANCED_FACE('',(#129,#130),#131,.T.);
#74=FACE_OUTER_BOUND('',#132,.T.);
#75=CYLINDRICAL_SURFACE('',#133,15.0);
#76=FACE_OUTER_BOUND('',#134,.T.);
#77=CONICAL_SURFACE('',#135,14.0528125,0.78539816339745);
#78=FACE_OUTER_BOUND('',#136,.T.);
#79=CYLINDRICAL_SURFACE('',#137,5.9995);
#80=FACE_OUTER_BOUND('',#138,.T.);
#81=CONICAL_SURFACE('',#139,2.99975,1.0471975511966);
#82=FACE_OUTER_BOUND('',#140,.T.);
#83=CYLINDRICAL_SURFACE('',#141,40.0);
#84=FACE_OUTER_BOUND('',#142,.T.);
#85=CONICAL_SURFACE('',#143,45.5,1.22173047639603);
#86=FACE_OUTER_BOUND('',#144,.T.);
#87=CYLINDRICAL_SURFACE('',#145,51.0);
#88=FACE_OUTER_BOUND('',#146,.T.);
#89=CYLINDRICAL_SURFACE('',#147,22.25);
#90=FACE_OUTER_BOUND('',#148,.T.);
#91=PLANE('',#149);
#92=FACE_OUTER_BOUND('',#150,.T.);
#93=PLANE('',#151);
#94=FACE_OUTER_BOUND('',#152,.T.);
#95=PLANE('',#153);
#96=FACE_OUTER_BOUND('',#154,.T.);
#97=PLANE('',#155);
#98=FACE_OUTER_BOUND('',#156,.T.);
#99=PLANE('',#157);
#100=FACE_OUTER_BOUND('',#158,.T.);
#101=PLANE('',#159);
#102=FACE_BOUND('',#160,.T.);
#103=FACE_OUTER_BOUND('',#161,.T.);
#104=PLANE('',#162);
#105=FACE_OUTER_BOUND('',#163,.T.);
#106=CYLINDRICAL_SURFACE('',#164,22.25);
#107=FACE_OUTER_BOUND('',#165,.T.);
#108=FACE_BOUND('',#166,.T.);
#109=PLANE('',#167);
#110=FACE_OUTER_BOUND('',#168,.T.);
#111=CYLINDRICAL_SURFACE('',#169,51.0);
#112=FACE_OUTER_BOUND('',#170,.T.);
#113=CONICAL_SURFACE('',#171,45.5,1.22173047639603);
#114=FACE_OUTER_BOUND('',#172,.T.);
#115=CYLINDRICAL_SURFACE('',#173,40.0);
#116=FACE_OUTER_BOUND('',#174,.T.);
#117=PLANE('',#175);
#118=FACE_OUTER_BOUND('',#176,.T.);
#119=CONICAL_SURFACE('',#177,2.99975,1.0471975511966);
#120=FACE_OUTER_BOUND('',#178,.T.);
#121=CYLINDRICAL_SURFACE('',#179,5.9995);
#122=FACE_BOUND('',#180,.T.);
#123=FACE_OUTER_BOUND('',#181,.T.);
#124=PLANE('',#182);
#125=FACE_OUTER_BOUND('',#183,.T.);
#126=CONICAL_SURFACE('',#184,14.0528125,0.78539816339745);
#127=FACE_OUTER_BOUND('',#185,.T.);
#128=CYLINDRICAL_SURFACE('',#186,15.0);
#129=FACE_OUTER_BOUND('',#187,.T.);
#130=FACE_BOUND('',#188,.T.);
#131=PLANE('',#189);
#132=EDGE_LOOP('',(#190,#191,#192,#193));
#133=AXIS2_PLACEMENT_3D('',#194,#195,#196);
#134=EDGE_LOOP('',(#197,#198,#199,#200));
#135=AXIS2_PLACEMENT_3D('',#201,#202,#203);
#136=EDGE_LOOP('',(#204,#205,#206,#207));
#137=AXIS2_PLACEMENT_3D('',#208,#209,#210);
#138=EDGE_LOOP('',(#211,#212,#213));
#139=AXIS2_PLACEMENT_3D('',#214,#215,#216);
#140=EDGE_LOOP('',(#217,#218,#219,#220));
#141=AXIS2_PLACEMENT_3D('',#221,#222,#223);
#142=EDGE_LOOP('',(#224,#225,#226,#227));
#143=AXIS2_PLACEMENT_3D('',#228,#229,#230);
#144=EDGE_LOOP('',(#231,#232,#233,#234));
#145=AXIS2_PLACEMENT_3D('',#235,#236,#237);
#146=EDGE_LOOP('',(#238,#239,#240,#241));
#147=AXIS2_PLACEMENT_3D('',#242,#243,#244);
#148=EDGE_LOOP('',(#245,#246,#247,#248));
#149=AXIS2_PLACEMENT_3D('',#249,#250,#251);
#150=EDGE_LOOP('',(#252,#253,#254,#255));
#151=AXIS2_PLACEMENT_3D('',#256,#257,#258);
#152=EDGE_LOOP('',(#259,#260,#261,#262));
#153=AXIS2_PLACEMENT_3D('',#263,#264,#265);
#154=EDGE_LOOP('',(#266,#267,#268,#269));
#155=AXIS2_PLACEMENT_3D('',#270,#271,#272);
#156=EDGE_LOOP('',(#273,#274,#275,#276));
#157=AXIS2_PLACEMENT_3D('',#277,#278,#279);
#158=EDGE_LOOP('',(#280,#281,#282,#283));
#159=AXIS2_PLACEMENT_3D('',#284,#285,#286);
#160=EDGE_LOOP('',(#287,#288));
#161=EDGE_LOOP('',(#289,#290,#291,#292,#293,#294));
#162=AXIS2_PLACEMENT_3D('',#295,#296,#297);
#163=EDGE_LOOP('',(#298,#299,#300,#301));
#164=AXIS2_PLACEMENT_3D('',#302,#303,#304);
#165=EDGE_LOOP('',(#305,#306));
#166=EDGE_LOOP('',(#307,#308));
#167=AXIS2_PLACEMENT_3D('',#309,#310,#311);
#168=EDGE_LOOP('',(#312,#313,#314,#315));
#169=AXIS2_PLACEMENT_3D('',#316,#317,#318);
#170=EDGE_LOOP('',(#319,#320,#321,#322));
#171=AXIS2_PLACEMENT_3D('',#323,#324,#325);
#172=EDGE_LOOP('',(#326,#327,#328,#329));
#173=AXIS2_PLACEMENT_3D('',#330,#331,#332);
#174=EDGE_LOOP('',(#333,#334));
#175=AXIS2_PLACEMENT_3D('',#335,#336,#337);
#176=EDGE_LOOP('',(#338,#339,#340));
#177=AXIS2_PLACEMENT_3D('',#341,#342,#343);
#178=EDGE_LOOP('',(#344,#345,#346,#347));
#179=AXIS2_PLACEMENT_3D('',#348,#349,#350);
#180=EDGE_LOOP('',(#351,#352,#353,#354,#355,#356));
#181=EDGE_LOOP('',(#357,#358));
#182=AXIS2_PLACEMENT_3D('',#359,#360,#361);
#183=EDGE_LOOP('',(#362,#363,#364,#365));
#184=AXIS2_PLACEMENT_3D('',#366,#367,#368);
#185=EDGE_LOOP('',(#369,#370,#371,#372));
#186=AXIS2_PLACEMENT_3D('',#373,#374,#375);
#187=EDGE_LOOP('',(#376,#377));
#188=EDGE_LOOP('',(#378,#379));
#189=AXIS2_PLACEMENT_3D('',#380,#381,#382);
#190=ORIENTED_EDGE('',*,*,#383,.F.);
#191=ORIENTED_EDGE('',*,*,#384,.T.);
#192=ORIENTED_EDGE('',*,*,#385,.F.);
#193=ORIENTED_EDGE('',*,*,#386,.F.);
#194=CARTESIAN_POINT('',(-85.8028125,0.0,0.0));
#195=DIRECTION('',(1.0,0.0,0.0));
#196=DIRECTION('',(0.0,1.0,0.0));
#197=ORIENTED_EDGE('',*,*,#387,.F.);
#198=ORIENTED_EDGE('',*,*,#388,.T.);
#199=ORIENTED_EDGE('',*,*,#389,.F.);
#200=ORIENTED_EDGE('',*,*,#384,.F.);
#201=CARTESIAN_POINT('',(-120.5528125,0.0,0.0));
#202=DIRECTION('',(1.0,-0.0,-0.0));
#203=DIRECTION('',(0.0,1.0,0.0));
#204=ORIENTED_EDGE('',*,*,#390,.F.);
#205=ORIENTED_EDGE('',*,*,#391,.T.);
#206=ORIENTED_EDGE('',*,*,#392,.F.);
#207=ORIENTED_EDGE('',*,*,#393,.T.);
#208=CARTESIAN_POINT('',(-113.231906470002,0.0,0.0));
#209=DIRECTION('',(1.0,0.0,0.0));
#210=DIRECTION('',(0.0,1.0,0.0));
#211=ORIENTED_EDGE('',*,*,#394,.F.);
#212=ORIENTED_EDGE('',*,*,#395,.F.);
#213=ORIENTED_EDGE('',*,*,#393,.F.);
#214=CARTESIAN_POINT('',(-103.231906470002,0.0,0.0));
#215=DIRECTION('',(-1.0,-0.0,-0.0));
#216=DIRECTION('',(0.0,1.0,0.0));
#217=ORIENTED_EDGE('',*,*,#396,.F.);
#218=ORIENTED_EDGE('',*,*,#397,.T.);
#219=ORIENTED_EDGE('',*,*,#398,.F.);
#220=ORIENTED_EDGE('',*,*,#399,.F.);
#221=CARTESIAN_POINT('',(-19.0,0.0,0.0));
#222=DIRECTION('',(1.0,0.0,0.0));
#223=DIRECTION('',(0.0,1.0,0.0));
#224=ORIENTED_EDGE('',*,*,#400,.F.);
#225=ORIENTED_EDGE('',*,*,#401,.T.);
#226=ORIENTED_EDGE('',*,*,#402,.F.);
#227=ORIENTED_EDGE('',*,*,#397,.F.);
#228=CARTESIAN_POINT('',(-40.0018362884641,0.0,0.0));
#229=DIRECTION('',(-1.0,-0.0,-0.0));
#230=DIRECTION('',(0.0,1.0,0.0));
#231=ORIENTED_EDGE('',*,*,#403,.F.);
#232=ORIENTED_EDGE('',*,*,#404,.T.);
#233=ORIENTED_EDGE('',*,*,#405,.F.);
#234=ORIENTED_EDGE('',*,*,#401,.F.);
#235=CARTESIAN_POINT('',(-46.2018362884641,0.0,0.0));
#236=DIRECTION('',(1.0,0.0,0.0));
#237=DIRECTION('',(0.0,1.0,0.0));
#238=ORIENTED_EDGE('',*,*,#406,.F.);
#239=ORIENTED_EDGE('',*,*,#407,.T.);
#240=ORIENTED_EDGE('',*,*,#408,.F.);
#241=ORIENTED_EDGE('',*,*,#409,.F.);
#242=CARTESIAN_POINT('',(-51.2,0.0,0.0));
#243=DIRECTION('',(1.0,0.0,0.0));
#244=DIRECTION('',(0.0,1.0,0.0));
#245=ORIENTED_EDGE('',*,*,#410,.F.);
#246=ORIENTED_EDGE('',*,*,#411,.T.);
#247=ORIENTED_EDGE('',*,*,#412,.F.);
#248=ORIENTED_EDGE('',*,*,#413,.F.);
#249=CARTESIAN_POINT('',(-122.5,5.19615242270663,-3.0));
#250=DIRECTION('',(0.0,0.866025403784438,-0.5));
#251=DIRECTION('',(0.0,0.5,0.866025403784439));
#252=ORIENTED_EDGE('',*,*,#414,.F.);
#253=ORIENTED_EDGE('',*,*,#413,.T.);
#254=ORIENTED_EDGE('',*,*,#415,.F.);
#255=ORIENTED_EDGE('',*,*,#416,.F.);
#256=CARTESIAN_POINT('',(-122.5,5.19615242270663,3.0));
#257=DIRECTION('',(-0.0,0.866025403784439,0.5));
#258=DIRECTION('',(0.0,-0.5,0.866025403784439));
#259=ORIENTED_EDGE('',*,*,#417,.F.);
#260=ORIENTED_EDGE('',*,*,#416,.T.);
#261=ORIENTED_EDGE('',*,*,#418,.F.);
#262=ORIENTED_EDGE('',*,*,#419,.F.);
#263=CARTESIAN_POINT('',(-122.5,1.77635683940025E-015,6.0));
#264=DIRECTION('',(-0.0,2.56395024851142E-016,1.0));
#265=DIRECTION('',(0.0,-1.0,2.56395024851142E-016));
#266=ORIENTED_EDGE('',*,*,#420,.F.);
#267=ORIENTED_EDGE('',*,*,#419,.T.);
#268=ORIENTED_EDGE('',*,*,#421,.F.);
#269=ORIENTED_EDGE('',*,*,#422,.F.);
#270=CARTESIAN_POINT('',(-122.5,-5.19615242270663,3.0));
#271=DIRECTION('',(0.0,-0.866025403784439,0.5));
#272=DIRECTION('',(0.0,-0.5,-0.866025403784439));
#273=ORIENTED_EDGE('',*,*,#423,.F.);
#274=ORIENTED_EDGE('',*,*,#424,.T.);
#275=ORIENTED_EDGE('',*,*,#425,.F.);
#276=ORIENTED_EDGE('',*,*,#411,.F.);
#277=CARTESIAN_POINT('',(-122.5,-1.33226762955019E-015,-6.0));
#278=DIRECTION('',(0.0,0.0,-1.0));
#279=DIRECTION('',(0.0,1.0,0.0));
#280=ORIENTED_EDGE('',*,*,#426,.F.);
#281=ORIENTED_EDGE('',*,*,#422,.T.);
#282=ORIENTED_EDGE('',*,*,#427,.F.);
#283=ORIENTED_EDGE('',*,*,#424,.F.);
#284=CARTESIAN_POINT('',(-122.5,-5.19615242270663,-3.0));
#285=DIRECTION('',(0.0,-0.866025403784439,-0.5));
#286=DIRECTION('',(0.0,0.5,-0.866025403784439));
#287=ORIENTED_EDGE('',*,*,#428,.F.);
#288=ORIENTED_EDGE('',*,*,#391,.F.);
#289=ORIENTED_EDGE('',*,*,#421,.T.);
#290=ORIENTED_EDGE('',*,*,#418,.T.);
#291=ORIENTED_EDGE('',*,*,#415,.T.);
#292=ORIENTED_EDGE('',*,*,#412,.T.);
#293=ORIENTED_EDGE('',*,*,#425,.T.);
#294=ORIENTED_EDGE('',*,*,#427,.T.);
#295=CARTESIAN_POINT('',(-112.5,-1.44665424420854E-016,2.22044604925031E-016));
#296=DIRECTION('',(1.0,0.0,0.0));
#297=DIRECTION('',(0.0,0.0,-1.0));
#298=ORIENTED_EDGE('',*,*,#406,.T.);
#299=ORIENTED_EDGE('',*,*,#429,.F.);
#300=ORIENTED_EDGE('',*,*,#408,.T.);
#301=ORIENTED_EDGE('',*,*,#430,.T.);
#302=CARTESIAN_POINT('',(-51.2,0.0,0.0));
#303=DIRECTION('',(1.0,0.0,0.0));
#304=DIRECTION('',(0.0,1.0,0.0));
#305=ORIENTED_EDGE('',*,*,#404,.F.);
#306=ORIENTED_EDGE('',*,*,#431,.F.);
#307=ORIENTED_EDGE('',*,*,#409,.T.);
#308=ORIENTED_EDGE('',*,*,#429,.T.);
#309=CARTESIAN_POINT('',(-50.4,36.625,0.0));
#310=DIRECTION('',(-1.0,-0.0,0.0));
#311=DIRECTION('',(0.0,-1.0,-0.0));
#312=ORIENTED_EDGE('',*,*,#403,.T.);
#313=ORIENTED_EDGE('',*,*,#432,.F.);
#314=ORIENTED_EDGE('',*,*,#405,.T.);
#315=ORIENTED_EDGE('',*,*,#431,.T.);
#316=CARTESIAN_POINT('',(-46.2018362884641,0.0,0.0));
#317=DIRECTION('',(1.0,0.0,0.0));
#318=DIRECTION('',(0.0,1.0,0.0));
#319=ORIENTED_EDGE('',*,*,#400,.T.);
#320=ORIENTED_EDGE('',*,*,#433,.F.);
#321=ORIENTED_EDGE('',*,*,#402,.T.);
#322=ORIENTED_EDGE('',*,*,#432,.T.);
#323=CARTESIAN_POINT('',(-40.0018362884641,0.0,0.0));
#324=DIRECTION('',(-1.0,-0.0,-0.0));
#325=DIRECTION('',(0.0,1.0,0.0));
#326=ORIENTED_EDGE('',*,*,#396,.T.);
#327=ORIENTED_EDGE('',*,*,#434,.F.);
#328=ORIENTED_EDGE('',*,*,#398,.T.);
#329=ORIENTED_EDGE('',*,*,#433,.T.);
#330=CARTESIAN_POINT('',(-19.0,0.0,0.0));
#331=DIRECTION('',(1.0,0.0,0.0));
#332=DIRECTION('',(0.0,1.0,0.0));
#333=ORIENTED_EDGE('',*,*,#399,.T.);
#334=ORIENTED_EDGE('',*,*,#434,.T.);
#335=CARTESIAN_POINT('',(0.0,20.0,0.0));
#336=DIRECTION('',(1.0,0.0,0.0));
#337=DIRECTION('',(0.0,1.0,0.0));
#338=ORIENTED_EDGE('',*,*,#394,.T.);
#339=ORIENTED_EDGE('',*,*,#435,.F.);
#340=ORIENTED_EDGE('',*,*,#395,.T.);
#341=CARTESIAN_POINT('',(-103.231906470002,0.0,0.0));
#342=DIRECTION('',(-1.0,-0.0,-0.0));
#343=DIRECTION('',(0.0,1.0,0.0));
#344=ORIENTED_EDGE('',*,*,#390,.T.);
#345=ORIENTED_EDGE('',*,*,#435,.T.);
#346=ORIENTED_EDGE('',*,*,#392,.T.);
#347=ORIENTED_EDGE('',*,*,#428,.T.);
#348=CARTESIAN_POINT('',(-113.231906470002,0.0,0.0));
#349=DIRECTION('',(1.0,0.0,0.0));
#350=DIRECTION('',(0.0,1.0,0.0));
#351=ORIENTED_EDGE('',*,*,#420,.T.);
#352=ORIENTED_EDGE('',*,*,#426,.T.);
#353=ORIENTED_EDGE('',*,*,#423,.T.);
#354=ORIENTED_EDGE('',*,*,#410,.T.);
#355=ORIENTED_EDGE('',*,*,#414,.T.);
#356=ORIENTED_EDGE('',*,*,#417,.T.);
#357=ORIENTED_EDGE('',*,*,#388,.F.);
#358=ORIENTED_EDGE('',*,*,#436,.F.);
#359=CARTESIAN_POINT('',(-121.5,9.5525625,0.0));
#360=DIRECTION('',(-1.0,-0.0,0.0));
#361=DIRECTION('',(0.0,-1.0,-0.0));
#362=ORIENTED_EDGE('',*,*,#387,.T.);
#363=ORIENTED_EDGE('',*,*,#437,.F.);
#364=ORIENTED_EDGE('',*,*,#389,.T.);
#365=ORIENTED_EDGE('',*,*,#436,.T.);
#366=CARTESIAN_POINT('',(-120.5528125,0.0,0.0));
#367=DIRECTION('',(1.0,-0.0,-0.0));
#368=DIRECTION('',(0.0,1.0,0.0));
#369=ORIENTED_EDGE('',*,*,#383,.T.);
#370=ORIENTED_EDGE('',*,*,#438,.F.);
#371=ORIENTED_EDGE('',*,*,#385,.T.);
#372=ORIENTED_EDGE('',*,*,#437,.T.);
#373=CARTESIAN_POINT('',(-85.8028125,0.0,0.0));
#374=DIRECTION('',(1.0,0.0,0.0));
#375=DIRECTION('',(0.0,1.0,0.0));
#376=ORIENTED_EDGE('',*,*,#407,.F.);
#377=ORIENTED_EDGE('',*,*,#430,.F.);
#378=ORIENTED_EDGE('',*,*,#386,.T.);
#379=ORIENTED_EDGE('',*,*,#438,.T.);
#380=CARTESIAN_POINT('',(-52.0,18.625,0.0));
#381=DIRECTION('',(-1.0,-0.0,0.0));
#382=DIRECTION('',(0.0,-1.0,-0.0));
#383=EDGE_CURVE('',#439,#440,#441,.T.);
#384=EDGE_CURVE('',#439,#442,#443,.T.);
#385=EDGE_CURVE('',#444,#442,#445,.T.);
#386=EDGE_CURVE('',#440,#444,#446,.T.);
#387=EDGE_CURVE('',#447,#439,#448,.T.);
#388=EDGE_CURVE('',#447,#449,#450,.T.);
#389=EDGE_CURVE('',#442,#449,#451,.T.);
#390=EDGE_CURVE('',#452,#453,#454,.T.);
#391=EDGE_CURVE('',#452,#455,#456,.T.);
#392=EDGE_CURVE('',#457,#455,#458,.T.);
#393=EDGE_CURVE('',#457,#453,#459,.T.);
#394=EDGE_CURVE('',#460,#457,#461,.T.);
#395=EDGE_CURVE('',#453,#460,#462,.T.);
#396=EDGE_CURVE('',#463,#464,#465,.T.);
#397=EDGE_CURVE('',#463,#466,#467,.T.);
#398=EDGE_CURVE('',#468,#466,#469,.T.);
#399=EDGE_CURVE('',#464,#468,#470,.T.);
#400=EDGE_CURVE('',#471,#463,#472,.T.);
#401=EDGE_CURVE('',#471,#473,#474,.T.);
#402=EDGE_CURVE('',#466,#473,#475,.T.);
#403=EDGE_CURVE('',#476,#471,#477,.T.);
#404=EDGE_CURVE('',#476,#478,#479,.T.);
#405=EDGE_CURVE('',#473,#478,#480,.T.);
#406=EDGE_CURVE('',#481,#482,#483,.T.);
#407=EDGE_CURVE('',#481,#484,#485,.T.);
#408=EDGE_CURVE('',#486,#484,#487,.T.);
#409=EDGE_CURVE('',#482,#486,#488,.T.);
#410=EDGE_CURVE('',#489,#490,#491,.T.);
#411=EDGE_CURVE('',#489,#492,#493,.T.);
#412=EDGE_CURVE('',#494,#492,#495,.T.);
#413=EDGE_CURVE('',#490,#494,#496,.T.);
#414=EDGE_CURVE('',#490,#497,#498,.T.);
#415=EDGE_CURVE('',#499,#494,#500,.T.);
#416=EDGE_CURVE('',#497,#499,#501,.T.);
#417=EDGE_CURVE('',#497,#502,#503,.T.);
#418=EDGE_CURVE('',#504,#499,#505,.T.);
#419=EDGE_CURVE('',#502,#504,#506,.T.);
#420=EDGE_CURVE('',#502,#507,#508,.T.);
#421=EDGE_CURVE('',#509,#504,#510,.T.);
#422=EDGE_CURVE('',#507,#509,#511,.T.);
#423=EDGE_CURVE('',#512,#489,#513,.T.);
#424=EDGE_CURVE('',#512,#514,#515,.T.);
#425=EDGE_CURVE('',#492,#514,#516,.T.);
#426=EDGE_CURVE('',#507,#512,#517,.T.);
#427=EDGE_CURVE('',#514,#509,#518,.T.);
#428=EDGE_CURVE('',#455,#452,#519,.T.);
#429=EDGE_CURVE('',#486,#482,#520,.T.);
#430=EDGE_CURVE('',#484,#481,#521,.T.);
#431=EDGE_CURVE('',#478,#476,#522,.T.);
#432=EDGE_CURVE('',#473,#471,#523,.T.);
#433=EDGE_CURVE('',#466,#463,#524,.T.);
#434=EDGE_CURVE('',#468,#464,#525,.T.);
#435=EDGE_CURVE('',#453,#457,#526,.T.);
#436=EDGE_CURVE('',#449,#447,#527,.T.);
#437=EDGE_CURVE('',#442,#439,#528,.T.);
#438=EDGE_CURVE('',#444,#440,#529,.T.);
#439=VERTEX_POINT('',#530);
#440=VERTEX_POINT('',#531);
#441=LINE('',#532,#533);
#442=VERTEX_POINT('',#534);
#443=CIRCLE('',#535,15.0);
#444=VERTEX_POINT('',#536);
#445=LINE('',#537,#538);
#446=CIRCLE('',#539,15.0);
#447=VERTEX_POINT('',#540);
#448=LINE('',#541,#542);
#449=VERTEX_POINT('',#543);
#450=CIRCLE('',#544,13.105625);
#451=LINE('',#545,#546);
#452=VERTEX_POINT('',#547);
#453=VERTEX_POINT('',#548);
#454=LINE('',#549,#550);
#455=VERTEX_POINT('',#551);
#456=CIRCLE('',#552,5.9995);
#457=VERTEX_POINT('',#553);
#458=LINE('',#554,#555);
#459=CIRCLE('',#556,5.9995);
#460=VERTEX_POINT('',#557);
#461=LINE('',#558,#559);
#462=LINE('',#560,#561);
#463=VERTEX_POINT('',#562);
#464=VERTEX_POINT('',#563);
#465=LINE('',#564,#565);
#466=VERTEX_POINT('',#566);
#467=CIRCLE('',#567,40.0);
#468=VERTEX_POINT('',#568);
#469=LINE('',#569,#570);
#470=CIRCLE('',#571,40.0);
#471=VERTEX_POINT('',#572);
#472=LINE('',#573,#574);
#473=VERTEX_POINT('',#575);
#474=CIRCLE('',#576,51.0);
#475=LINE('',#577,#578);
#476=VERTEX_POINT('',#579);
#477=LINE('',#580,#581);
#478=VERTEX_POINT('',#582);
#479=CIRCLE('',#583,51.0);
#480=LINE('',#584,#585);
#481=VERTEX_POINT('',#586);
#482=VERTEX_POINT('',#587);
#483=LINE('',#588,#589);
#484=VERTEX_POINT('',#590);
#485=CIRCLE('',#591,22.25);
#486=VERTEX_POINT('',#592);
#487=LINE('',#593,#594);
#488=CIRCLE('',#595,22.25);
#489=VERTEX_POINT('',#596);
#490=VERTEX_POINT('',#597);
#491=LINE('',#598,#599);
#492=VERTEX_POINT('',#600);
#493=LINE('',#601,#602);
#494=VERTEX_POINT('',#603);
#495=LINE('',#604,#605);
#496=LINE('',#606,#607);
#497=VERTEX_POINT('',#608);
#498=LINE('',#609,#610);
#499=VERTEX_POINT('',#611);
#500=LINE('',#612,#613);
#501=LINE('',#614,#615);
#502=VERTEX_POINT('',#616);
#503=LINE('',#617,#618);
#504=VERTEX_POINT('',#619);
#505=LINE('',#620,#621);
#506=LINE('',#622,#623);
#507=VERTEX_POINT('',#624);
#508=LINE('',#625,#626);
#509=VERTEX_POINT('',#627);
#510=LINE('',#628,#629);
#511=LINE('',#630,#631);
#512=VERTEX_POINT('',#632);
#513=LINE('',#633,#634);
#514=VERTEX_POINT('',#635);
#515=LINE('',#636,#637);
#516=LINE('',#638,#639);
#517=LINE('',#640,#641);
#518=LINE('',#642,#643);
#519=CIRCLE('',#644,5.9995);
#520=CIRCLE('',#645,22.25);
#521=CIRCLE('',#646,22.25);
#522=CIRCLE('',#647,51.0);
#523=CIRCLE('',#648,51.0);
#524=CIRCLE('',#649,40.0);
#525=CIRCLE('',#650,40.0);
#526=CIRCLE('',#651,5.9995);
#527=CIRCLE('',#652,13.105625);
#528=CIRCLE('',#653,15.0);
#529=CIRCLE('',#654,15.0);
#530=CARTESIAN_POINT('',(-119.605625,15.0,0.0));
#531=CARTESIAN_POINT('',(-52.0,15.0,0.0));
#532=CARTESIAN_POINT('',(-85.8028125,15.0,-1.83690953073357E-015));
#533=VECTOR('',#655,1.0);
#534=CARTESIAN_POINT('',(-119.605625,-15.0,1.83690953073357E-015));
#535=AXIS2_PLACEMENT_3D('',#656,#657,#658);
#536=CARTESIAN_POINT('',(-52.0,-15.0,1.83690953073357E-015));
#537=CARTESIAN_POINT('',(-85.8028125,-15.0,1.83690953073357E-015));
#538=VECTOR('',#659,1.0);
#539=AXIS2_PLACEMENT_3D('',#660,#661,#662);
#540=CARTESIAN_POINT('',(-121.5,13.105625,0.0));
#541=CARTESIAN_POINT('',(-120.5528125,14.0528125,-1.72091634765745E-015));
#542=VECTOR('',#663,1.0);
#543=CARTESIAN_POINT('',(-121.5,-13.105625,1.60492316458134E-015));
#544=AXIS2_PLACEMENT_3D('',#664,#665,#666);
#545=CARTESIAN_POINT('',(-120.5528125,-14.0528125,1.72091634765745E-015));
#546=VECTOR('',#667,1.0);
#547=CARTESIAN_POINT('',(-112.5,5.9995,-7.34702581975735E-016));
#548=CARTESIAN_POINT('',(-104.963812940003,5.9995,0.0));
#549=CARTESIAN_POINT('',(-108.731906470002,5.9995,-7.34702581975735E-016));
#550=VECTOR('',#668,1.0);
#551=CARTESIAN_POINT('',(-112.5,-5.9995,7.34702581975735E-016));
#552=AXIS2_PLACEMENT_3D('',#669,#670,#671);
#553=CARTESIAN_POINT('',(-104.963812940003,-5.9995,7.34702581975735E-016));
#554=CARTESIAN_POINT('',(-108.731906470002,-5.9995,7.34702581975735E-016));
#555=VECTOR('',#672,1.0);
#556=AXIS2_PLACEMENT_3D('',#673,#674,#675);
#557=CARTESIAN_POINT('',(-101.5,0.0,0.0));
#558=CARTESIAN_POINT('',(-103.231906470002,-2.99975,3.67351290987868E-016));
#559=VECTOR('',#676,1.0);
#560=CARTESIAN_POINT('',(-103.231906470002,2.99975,-3.67351290987868E-016));
#561=VECTOR('',#677,1.0);
#562=CARTESIAN_POINT('',(-38.0,40.0,0.0));
#563=CARTESIAN_POINT('',(0.0,40.0,0.0));
#564=CARTESIAN_POINT('',(-19.0,40.0,-4.89842541528951E-015));
#565=VECTOR('',#678,1.0);
#566=CARTESIAN_POINT('',(-38.0,-40.0,4.89842541528951E-015));
#567=AXIS2_PLACEMENT_3D('',#679,#680,#681);
#568=CARTESIAN_POINT('',(0.0,-40.0,4.89842541528951E-015));
#569=CARTESIAN_POINT('',(-19.0,-40.0,4.89842541528951E-015));
#570=VECTOR('',#682,1.0);
#571=AXIS2_PLACEMENT_3D('',#683,#684,#685);
#572=CARTESIAN_POINT('',(-42.0036725769282,51.0,0.0));
#573=CARTESIAN_POINT('',(-40.0018362884641,45.5,-5.57195890989182E-015));
#574=VECTOR('',#686,1.0);
#575=CARTESIAN_POINT('',(-42.0036725769282,-51.0,6.24549240449412E-015));
#576=AXIS2_PLACEMENT_3D('',#687,#688,#689);
#577=CARTESIAN_POINT('',(-40.0018362884641,-45.5,5.57195890989182E-015));
#578=VECTOR('',#690,1.0);
#579=CARTESIAN_POINT('',(-50.4,51.0,0.0));
#580=CARTESIAN_POINT('',(-46.2018362884641,51.0,-6.24549240449412E-015));
#581=VECTOR('',#691,1.0);
#582=CARTESIAN_POINT('',(-50.4,-51.0,6.24549240449412E-015));
#583=AXIS2_PLACEMENT_3D('',#692,#693,#694);
#584=CARTESIAN_POINT('',(-46.2018362884641,-51.0,6.24549240449412E-015));
#585=VECTOR('',#695,1.0);
#586=CARTESIAN_POINT('',(-52.0,22.25,0.0));
#587=CARTESIAN_POINT('',(-50.4,22.25,0.0));
#588=CARTESIAN_POINT('',(-51.2,22.25,-2.72474913725479E-015));
#589=VECTOR('',#696,1.0);
#590=CARTESIAN_POINT('',(-52.0,-22.25,2.72474913725479E-015));
#591=AXIS2_PLACEMENT_3D('',#697,#698,#699);
#592=CARTESIAN_POINT('',(-50.4,-22.25,2.72474913725479E-015));
#593=CARTESIAN_POINT('',(-51.2,-22.25,2.72474913725479E-015));
#594=VECTOR('',#700,1.0);
#595=AXIS2_PLACEMENT_3D('',#701,#702,#703);
#596=CARTESIAN_POINT('',(-121.5,3.46410161513775,-6.0));
#597=CARTESIAN_POINT('',(-121.5,6.92820323027551,-1.27266226512677E-015));
#598=CARTESIAN_POINT('',(-121.5,6.39022273520663,-0.931809550940352));
#599=VECTOR('',#704,1.0);
#600=CARTESIAN_POINT('',(-112.5,3.46410161513775,-6.0));
#601=CARTESIAN_POINT('',(-122.5,3.46410161513775,-6.0));
#602=VECTOR('',#705,1.0);
#603=CARTESIAN_POINT('',(-112.5,6.92820323027551,-1.27266226512677E-015));
#604=CARTESIAN_POINT('',(-112.5,3.46410161513775,-6.0));
#605=VECTOR('',#706,1.0);
#606=CARTESIAN_POINT('',(-122.5,6.92820323027551,-1.27266226512677E-015));
#607=VECTOR('',#707,1.0);
#608=CARTESIAN_POINT('',(-121.5,3.46410161513776,6.0));
#609=CARTESIAN_POINT('',(-121.5,6.39022273520663,0.931809550940352));
#610=VECTOR('',#708,1.0);
#611=CARTESIAN_POINT('',(-112.5,3.46410161513776,6.0));
#612=CARTESIAN_POINT('',(-112.5,6.92820323027551,-1.27266226512677E-015));
#613=VECTOR('',#709,1.0);
#614=CARTESIAN_POINT('',(-122.5,3.46410161513776,6.0));
#615=VECTOR('',#710,1.0);
#616=CARTESIAN_POINT('',(-121.5,-3.46410161513775,6.0));
#617=CARTESIAN_POINT('',(-121.5,4.77628125,6.0));
#618=VECTOR('',#711,1.0);
#619=CARTESIAN_POINT('',(-112.5,-3.46410161513775,6.0));
#620=CARTESIAN_POINT('',(-112.5,3.46410161513776,6.0));
#621=VECTOR('',#712,1.0);
#622=CARTESIAN_POINT('',(-122.5,-3.46410161513775,6.0));
#623=VECTOR('',#713,1.0);
#624=CARTESIAN_POINT('',(-121.5,-6.92820323027551,4.24230095489963E-016));
#625=CARTESIAN_POINT('',(-121.5,-4.00208211020663,5.06819044905965));
#626=VECTOR('',#714,1.0);
#627=CARTESIAN_POINT('',(-112.5,-6.92820323027551,4.24230095489963E-016));
#628=CARTESIAN_POINT('',(-112.5,-3.46410161513775,6.0));
#629=VECTOR('',#715,1.0);
#630=CARTESIAN_POINT('',(-122.5,-6.92820323027551,4.24230095489963E-016));
#631=VECTOR('',#716,1.0);
#632=CARTESIAN_POINT('',(-121.5,-3.46410161513775,-6.0));
#633=CARTESIAN_POINT('',(-121.5,4.77628125,-6.0));
#634=VECTOR('',#717,1.0);
#635=CARTESIAN_POINT('',(-112.5,-3.46410161513775,-6.0));
#636=CARTESIAN_POINT('',(-122.5,-3.46410161513775,-6.0));
#637=VECTOR('',#718,1.0);
#638=CARTESIAN_POINT('',(-112.5,-3.46410161513775,-6.0));
#639=VECTOR('',#719,1.0);
#640=CARTESIAN_POINT('',(-121.5,-4.00208211020663,-5.06819044905965));
#641=VECTOR('',#720,1.0);
#642=CARTESIAN_POINT('',(-112.5,-6.92820323027551,4.24230095489963E-016));
#643=VECTOR('',#721,1.0);
#644=AXIS2_PLACEMENT_3D('',#722,#723,#724);
#645=AXIS2_PLACEMENT_3D('',#725,#726,#727);
#646=AXIS2_PLACEMENT_3D('',#728,#729,#730);
#647=AXIS2_PLACEMENT_3D('',#731,#732,#733);
#648=AXIS2_PLACEMENT_3D('',#734,#735,#736);
#649=AXIS2_PLACEMENT_3D('',#737,#738,#739);
#650=AXIS2_PLACEMENT_3D('',#740,#741,#742);
#651=AXIS2_PLACEMENT_3D('',#743,#744,#745);
#652=AXIS2_PLACEMENT_3D('',#746,#747,#748);
#653=AXIS2_PLACEMENT_3D('',#749,#750,#751);
#654=AXIS2_PLACEMENT_3D('',#752,#753,#754);
#655=DIRECTION('',(1.0,0.0,0.0));
#656=CARTESIAN_POINT('',(-119.605625,0.0,0.0));
#657=DIRECTION('',(1.0,0.0,0.0));
#658=DIRECTION('',(0.0,1.0,0.0));
#659=DIRECTION('',(-1.0,-0.0,-0.0));
#660=CARTESIAN_POINT('',(-52.0,0.0,0.0));
#661=DIRECTION('',(1.0,0.0,0.0));
#662=DIRECTION('',(0.0,1.0,0.0));
#663=DIRECTION('',(0.707106781186547,0.707106781186548,-8.65927457071937E-017));
#664=CARTESIAN_POINT('',(-121.5,0.0,0.0));
#665=DIRECTION('',(1.0,0.0,0.0));
#666=DIRECTION('',(0.0,1.0,0.0));
#667=DIRECTION('',(-0.707106781186547,0.707106781186548,-8.65927457071937E-017));
#668=DIRECTION('',(1.0,-0.0,0.0));
#669=CARTESIAN_POINT('',(-112.5,0.0,0.0));
#670=DIRECTION('',(-1.0,0.0,0.0));
#671=DIRECTION('',(0.0,1.0,0.0));
#672=DIRECTION('',(-1.0,-0.0,0.0));
#673=CARTESIAN_POINT('',(-104.963812940003,0.0,0.0));
#674=DIRECTION('',(1.0,0.0,0.0));
#675=DIRECTION('',(0.0,1.0,0.0));
#676=DIRECTION('',(-0.499999999999999,-0.866025403784439,1.06054021204601E-016));
#677=DIRECTION('',(0.499999999999999,-0.866025403784439,1.06054021204601E-016));
#678=DIRECTION('',(1.0,0.0,0.0));
#679=CARTESIAN_POINT('',(-38.0,0.0,0.0));
#680=DIRECTION('',(1.0,0.0,0.0));
#681=DIRECTION('',(0.0,1.0,0.0));
#682=DIRECTION('',(-1.0,-0.0,-0.0));
#683=CARTESIAN_POINT('',(0.0,0.0,0.0));
#684=DIRECTION('',(1.0,0.0,0.0));
#685=DIRECTION('',(0.0,1.0,0.0));
#686=DIRECTION('',(0.342020143325668,-0.939692620785909,1.15075355405443E-016));
#687=CARTESIAN_POINT('',(-42.0036725769282,0.0,0.0));
#688=DIRECTION('',(1.0,0.0,0.0));
#689=DIRECTION('',(0.0,1.0,0.0));
#690=DIRECTION('',(-0.342020143325668,-0.939692620785909,1.15075355405443E-016));
#691=DIRECTION('',(1.0,0.0,0.0));
#692=CARTESIAN_POINT('',(-50.4,0.0,0.0));
#693=DIRECTION('',(1.0,0.0,0.0));
#694=DIRECTION('',(0.0,1.0,0.0));
#695=DIRECTION('',(-1.0,-0.0,-0.0));
#696=DIRECTION('',(1.0,0.0,0.0));
#697=CARTESIAN_POINT('',(-52.0,0.0,0.0));
#698=DIRECTION('',(1.0,0.0,0.0));
#699=DIRECTION('',(0.0,1.0,0.0));
#700=DIRECTION('',(-1.0,-0.0,-0.0));
#701=CARTESIAN_POINT('',(-50.4,0.0,0.0));
#702=DIRECTION('',(1.0,0.0,0.0));
#703=DIRECTION('',(0.0,1.0,0.0));
#704=DIRECTION('',(0.0,0.5,0.866025403784439));
#705=DIRECTION('',(1.0,0.0,0.0));
#706=DIRECTION('',(-0.0,-0.5,-0.866025403784439));
#707=DIRECTION('',(1.0,0.0,0.0));
#708=DIRECTION('',(0.0,-0.5,0.866025403784439));
#709=DIRECTION('',(0.0,0.5,-0.866025403784439));
#710=DIRECTION('',(1.0,0.0,0.0));
#711=DIRECTION('',(0.0,-1.0,2.56395024851142E-016));
#712=DIRECTION('',(0.0,1.0,-2.56395024851142E-016));
#713=DIRECTION('',(1.0,0.0,0.0));
#714=DIRECTION('',(-0.0,-0.5,-0.866025403784439));
#715=DIRECTION('',(0.0,0.5,0.866025403784439));
#716=DIRECTION('',(1.0,0.0,0.0));
#717=DIRECTION('',(0.0,1.0,0.0));
#718=DIRECTION('',(1.0,0.0,0.0));
#719=DIRECTION('',(-0.0,-1.0,-0.0));
#720=DIRECTION('',(0.0,0.5,-0.866025403784439));
#721=DIRECTION('',(0.0,-0.5,0.866025403784439));
#722=CARTESIAN_POINT('',(-112.5,0.0,0.0));
#723=DIRECTION('',(-1.0,0.0,0.0));
#724=DIRECTION('',(0.0,1.0,0.0));
#725=CARTESIAN_POINT('',(-50.4,0.0,0.0));
#726=DIRECTION('',(1.0,0.0,0.0));
#727=DIRECTION('',(0.0,1.0,0.0));
#728=CARTESIAN_POINT('',(-52.0,0.0,0.0));
#729=DIRECTION('',(1.0,0.0,0.0));
#730=DIRECTION('',(0.0,1.0,0.0));
#731=CARTESIAN_POINT('',(-50.4,0.0,0.0));
#732=DIRECTION('',(1.0,0.0,0.0));
#733=DIRECTION('',(0.0,1.0,0.0));
#734=CARTESIAN_POINT('',(-42.0036725769282,0.0,0.0));
#735=DIRECTION('',(1.0,0.0,0.0));
#736=DIRECTION('',(0.0,1.0,0.0));
#737=CARTESIAN_POINT('',(-38.0,0.0,0.0));
#738=DIRECTION('',(1.0,0.0,0.0));
#739=DIRECTION('',(0.0,1.0,0.0));
#740=CARTESIAN_POINT('',(0.0,0.0,0.0));
#741=DIRECTION('',(1.0,0.0,0.0));
#742=DIRECTION('',(0.0,1.0,0.0));
#743=CARTESIAN_POINT('',(-104.963812940003,0.0,0.0));
#744=DIRECTION('',(1.0,0.0,0.0));
#745=DIRECTION('',(0.0,1.0,0.0));
#746=CARTESIAN_POINT('',(-121.5,0.0,0.0));
#747=DIRECTION('',(1.0,0.0,0.0));
#748=DIRECTION('',(0.0,1.0,0.0));
#749=CARTESIAN_POINT('',(-119.605625,0.0,0.0));
#750=DIRECTION('',(1.0,0.0,0.0));
#751=DIRECTION('',(0.0,1.0,0.0));
#752=CARTESIAN_POINT('',(-52.0,0.0,0.0));
#753=DIRECTION('',(1.0,0.0,0.0));
#754=DIRECTION('',(0.0,1.0,0.0));
ENDSEC;
END-ISO-10303-21;
